27 de abril de 2008

Cifra - Chop Suey

N.C.

intro: A [bass riff]

A
I know a place
Where the kids all dance
I know a place
In Paris, France
Chop Suey [x2] [bass riff]

A
I know a place
Where they really move, yeah
Whomp bomp flip flop
Slam dance screw
Chop Suey [x2] [bass riff]

D
Chop Suey
C
Chop Suey
D C
Suey ah ahhhhhh
A
Chop Suey [bass riff]

A
She's the one
That's got that beat, yeah
She's the one
That's got that beat
Chop Suey [x2] [bass riff]

A
She's the one
That's got that beat
Got those crazy
Tiger feet
Chop Suey [x2] [bass riff]

D
Chop Suey
C
Chop Suey
D C
Suey ah ahhhhhh
A
Chop Suey [bass riff]

D
Chop Suey
C
Chop Suey
D C
Suey ah ahhhhhh
A
Chop Suey [bass riff]

C G A [3x]

A [bass riff]

A
I know a place
Where they really shake, yeah
I know a place
Where they really shake
Chop Suey (x2) [bass riff]

A
I know a place
Where they really shake, yeah
Punk funk (_)
A real clambake
Chop Suey [x2] [bass riff]

D
Chop Suey
C
Chop Suey
D C
Suey ah ahhhhhh
A
Chop Suey [bass riff]

D
Chop Suey
C
Chop Suey
D C
Suey ah ahhhhhh
A
Chop Suey [bass riff]

D
Chop Suey
C
Chop Suey
D C
Suey ah ahhhhhh
A
Chop Suey [bass riff]

A
Wha wha wha wha wha wha
Wha wha wha wha wha wha
Wha wha wha wha [solo] [x2]


riff do baixo:

G|------------|
D|---7--7-5---|
A|----------7-|
E|-5----------|


riff que acompanha A em quase toda a música:

e|-5----5--5-5-5-5-|
B|-5----5--5-5-5-5-|
G|-6----6--6-6-6-6-|
D|-----------------|
A|-----------------|
E|-----------------|


pequeno solo no final da música:

e|-12-13-12-13-12-10-------|
B|-------------------13-10-|
G|-------------------------|
D|-------------------------|
A|-------------------------|
E|-------------------------|

Nenhum comentário: